ISO-10303-21;
HEADER;
/* Generated by software containing ST-Developer
 * from STEP Tools, Inc. (www.steptools.com) 
 */

FILE_DESCRIPTION(
/* description */ (''),
/* implementation_level */ '2;1');

FILE_NAME(
/* name */ 
'C:/Users/cp/OneDrive - Zentura/Desktop/FilametM\X\E5ler/Base.step',
/* time_stamp */ '2022-01-07T13:36:11+01:00',
/* author */ (''),
/* organization */ (''),
/* preprocessor_version */ 'ST-DEVELOPER v18.1',
/* originating_system */ 'Autodesk Translation Framework v10.10.0.1391',

/* authorisation */ '');

FILE_SCHEMA (('AUTOMOTIVE_DESIGN { 1 0 10303 214 3 1 1 }'));
ENDSEC;

DATA;
#10=MECHANICAL_DESIGN_GEOMETRIC_PRESENTATION_REPRESENTATION('',(#13),#391);
#11=SHAPE_REPRESENTATION_RELATIONSHIP('SRR','None',#398,#12);
#12=ADVANCED_BREP_SHAPE_REPRESENTATION('',(#14),#390);
#13=STYLED_ITEM('',(#407),#14);
#14=MANIFOLD_SOLID_BREP('Body2',#211);
#15=PLANE('',#249);
#16=PLANE('',#250);
#17=PLANE('',#251);
#18=PLANE('',#254);
#19=TOROIDAL_SURFACE('',#237,9.6,0.4);
#20=TOROIDAL_SURFACE('',#242,1.375,0.4);
#21=LINE('',#341,#33);
#22=LINE('',#342,#34);
#23=LINE('',#354,#35);
#24=LINE('',#355,#36);
#25=LINE('',#363,#37);
#26=LINE('',#364,#38);
#27=LINE('',#372,#39);
#28=LINE('',#373,#40);
#29=LINE('',#379,#41);
#30=LINE('',#380,#42);
#31=LINE('',#383,#43);
#32=LINE('',#384,#44);
#33=VECTOR('',#269,10.);
#34=VECTOR('',#270,10.);
#35=VECTOR('',#283,10.);
#36=VECTOR('',#284,10.);
#37=VECTOR('',#295,10.);
#38=VECTOR('',#296,10.);
#39=VECTOR('',#307,10.);
#40=VECTOR('',#308,10.);
#41=VECTOR('',#317,10.);
#42=VECTOR('',#318,10.);
#43=VECTOR('',#321,10.);
#44=VECTOR('',#322,10.);
#45=CYLINDRICAL_SURFACE('',#229,0.4);
#46=CYLINDRICAL_SURFACE('',#235,0.4);
#47=CYLINDRICAL_SURFACE('',#240,0.4);
#48=CYLINDRICAL_SURFACE('',#246,0.4);
#49=CYLINDRICAL_SURFACE('',#247,10.);
#50=CYLINDRICAL_SURFACE('',#252,0.975);
#51=FACE_OUTER_BOUND('',#65,.T.);
#52=FACE_OUTER_BOUND('',#66,.T.);
#53=FACE_OUTER_BOUND('',#67,.T.);
#54=FACE_OUTER_BOUND('',#68,.T.);
#55=FACE_OUTER_BOUND('',#69,.T.);
#56=FACE_OUTER_BOUND('',#70,.T.);
#57=FACE_OUTER_BOUND('',#71,.T.);
#58=FACE_OUTER_BOUND('',#72,.T.);
#59=FACE_OUTER_BOUND('',#73,.T.);
#60=FACE_OUTER_BOUND('',#74,.T.);
#61=FACE_OUTER_BOUND('',#75,.T.);
#62=FACE_OUTER_BOUND('',#76,.T.);
#63=FACE_OUTER_BOUND('',#77,.T.);
#64=FACE_OUTER_BOUND('',#78,.T.);
#65=EDGE_LOOP('',(#139,#140,#141));
#66=EDGE_LOOP('',(#142,#143,#144,#145));
#67=EDGE_LOOP('',(#146,#147,#148));
#68=EDGE_LOOP('',(#149,#150,#151,#152));
#69=EDGE_LOOP('',(#153,#154,#155,#156));
#70=EDGE_LOOP('',(#157,#158,#159,#160));
#71=EDGE_LOOP('',(#161,#162,#163,#164));
#72=EDGE_LOOP('',(#165,#166,#167,#168));
#73=EDGE_LOOP('',(#169,#170,#171,#172));
#74=EDGE_LOOP('',(#173,#174,#175,#176));
#75=EDGE_LOOP('',(#177,#178,#179,#180));
#76=EDGE_LOOP('',(#181,#182,#183,#184));
#77=EDGE_LOOP('',(#185,#186,#187,#188));
#78=EDGE_LOOP('',(#189,#190,#191,#192,#193,#194));
#79=CIRCLE('',#226,0.4);
#80=CIRCLE('',#227,0.399999999999999);
#81=CIRCLE('',#228,0.4);
#82=CIRCLE('',#230,0.4);
#83=CIRCLE('',#232,0.4);
#84=CIRCLE('',#233,0.400000000000001);
#85=CIRCLE('',#234,0.4);
#86=CIRCLE('',#236,0.4);
#87=CIRCLE('',#238,9.6);
#88=CIRCLE('',#239,10.);
#89=CIRCLE('',#241,0.4);
#90=CIRCLE('',#243,0.4);
#91=CIRCLE('',#244,1.375);
#92=CIRCLE('',#245,0.975);
#93=CIRCLE('',#248,10.);
#94=CIRCLE('',#253,0.975);
#95=VERTEX_POINT('',#331);
#96=VERTEX_POINT('',#332);
#97=VERTEX_POINT('',#334);
#98=VERTEX_POINT('',#338);
#99=VERTEX_POINT('',#339);
#100=VERTEX_POINT('',#344);
#101=VERTEX_POINT('',#345);
#102=VERTEX_POINT('',#347);
#103=VERTEX_POINT('',#351);
#104=VERTEX_POINT('',#352);
#105=VERTEX_POINT('',#360);
#106=VERTEX_POINT('',#361);
#107=VERTEX_POINT('',#366);
#108=VERTEX_POINT('',#367);
#109=VERTEX_POINT('',#378);
#110=VERTEX_POINT('',#382);
#111=EDGE_CURVE('',#95,#96,#79,.F.);
#112=EDGE_CURVE('',#97,#95,#80,.F.);
#113=EDGE_CURVE('',#96,#97,#81,.F.);
#114=EDGE_CURVE('',#98,#99,#82,.T.);
#115=EDGE_CURVE('',#99,#97,#21,.T.);
#116=EDGE_CURVE('',#95,#98,#22,.T.);
#117=EDGE_CURVE('',#100,#101,#83,.F.);
#118=EDGE_CURVE('',#102,#100,#84,.F.);
#119=EDGE_CURVE('',#101,#102,#85,.F.);
#120=EDGE_CURVE('',#103,#104,#86,.T.);
#121=EDGE_CURVE('',#104,#102,#23,.T.);
#122=EDGE_CURVE('',#100,#103,#24,.T.);
#123=EDGE_CURVE('',#96,#101,#87,.T.);
#124=EDGE_CURVE('',#102,#95,#88,.T.);
#125=EDGE_CURVE('',#105,#106,#89,.T.);
#126=EDGE_CURVE('',#106,#96,#25,.T.);
#127=EDGE_CURVE('',#97,#105,#26,.T.);
#128=EDGE_CURVE('',#107,#108,#90,.T.);
#129=EDGE_CURVE('',#108,#106,#91,.T.);
#130=EDGE_CURVE('',#105,#107,#92,.T.);
#131=EDGE_CURVE('',#101,#108,#27,.T.);
#132=EDGE_CURVE('',#107,#100,#28,.T.);
#133=EDGE_CURVE('',#104,#98,#93,.T.);
#134=EDGE_CURVE('',#109,#99,#29,.T.);
#135=EDGE_CURVE('',#109,#105,#30,.T.);
#136=EDGE_CURVE('',#110,#107,#31,.T.);
#137=EDGE_CURVE('',#110,#103,#32,.T.);
#138=EDGE_CURVE('',#110,#109,#94,.T.);
#139=ORIENTED_EDGE('',*,*,#111,.F.);
#140=ORIENTED_EDGE('',*,*,#112,.F.);
#141=ORIENTED_EDGE('',*,*,#113,.F.);
#142=ORIENTED_EDGE('',*,*,#114,.T.);
#143=ORIENTED_EDGE('',*,*,#115,.T.);
#144=ORIENTED_EDGE('',*,*,#112,.T.);
#145=ORIENTED_EDGE('',*,*,#116,.T.);
#146=ORIENTED_EDGE('',*,*,#117,.F.);
#147=ORIENTED_EDGE('',*,*,#118,.F.);
#148=ORIENTED_EDGE('',*,*,#119,.F.);
#149=ORIENTED_EDGE('',*,*,#120,.T.);
#150=ORIENTED_EDGE('',*,*,#121,.T.);
#151=ORIENTED_EDGE('',*,*,#118,.T.);
#152=ORIENTED_EDGE('',*,*,#122,.T.);
#153=ORIENTED_EDGE('',*,*,#111,.T.);
#154=ORIENTED_EDGE('',*,*,#123,.T.);
#155=ORIENTED_EDGE('',*,*,#119,.T.);
#156=ORIENTED_EDGE('',*,*,#124,.T.);
#157=ORIENTED_EDGE('',*,*,#125,.T.);
#158=ORIENTED_EDGE('',*,*,#126,.T.);
#159=ORIENTED_EDGE('',*,*,#113,.T.);
#160=ORIENTED_EDGE('',*,*,#127,.T.);
#161=ORIENTED_EDGE('',*,*,#128,.T.);
#162=ORIENTED_EDGE('',*,*,#129,.T.);
#163=ORIENTED_EDGE('',*,*,#125,.F.);
#164=ORIENTED_EDGE('',*,*,#130,.T.);
#165=ORIENTED_EDGE('',*,*,#117,.T.);
#166=ORIENTED_EDGE('',*,*,#131,.T.);
#167=ORIENTED_EDGE('',*,*,#128,.F.);
#168=ORIENTED_EDGE('',*,*,#132,.T.);
#169=ORIENTED_EDGE('',*,*,#116,.F.);
#170=ORIENTED_EDGE('',*,*,#124,.F.);
#171=ORIENTED_EDGE('',*,*,#121,.F.);
#172=ORIENTED_EDGE('',*,*,#133,.T.);
#173=ORIENTED_EDGE('',*,*,#123,.F.);
#174=ORIENTED_EDGE('',*,*,#126,.F.);
#175=ORIENTED_EDGE('',*,*,#129,.F.);
#176=ORIENTED_EDGE('',*,*,#131,.F.);
#177=ORIENTED_EDGE('',*,*,#115,.F.);
#178=ORIENTED_EDGE('',*,*,#134,.F.);
#179=ORIENTED_EDGE('',*,*,#135,.T.);
#180=ORIENTED_EDGE('',*,*,#127,.F.);
#181=ORIENTED_EDGE('',*,*,#132,.F.);
#182=ORIENTED_EDGE('',*,*,#136,.F.);
#183=ORIENTED_EDGE('',*,*,#137,.T.);
#184=ORIENTED_EDGE('',*,*,#122,.F.);
#185=ORIENTED_EDGE('',*,*,#130,.F.);
#186=ORIENTED_EDGE('',*,*,#135,.F.);
#187=ORIENTED_EDGE('',*,*,#138,.F.);
#188=ORIENTED_EDGE('',*,*,#136,.T.);
#189=ORIENTED_EDGE('',*,*,#114,.F.);
#190=ORIENTED_EDGE('',*,*,#133,.F.);
#191=ORIENTED_EDGE('',*,*,#120,.F.);
#192=ORIENTED_EDGE('',*,*,#137,.F.);
#193=ORIENTED_EDGE('',*,*,#138,.T.);
#194=ORIENTED_EDGE('',*,*,#134,.T.);
#195=SPHERICAL_SURFACE('',#225,0.399999999999999);
#196=SPHERICAL_SURFACE('',#231,0.400000000000001);
#197=ADVANCED_FACE('',(#51),#195,.T.);
#198=ADVANCED_FACE('',(#52),#45,.T.);
#199=ADVANCED_FACE('',(#53),#196,.T.);
#200=ADVANCED_FACE('',(#54),#46,.T.);
#201=ADVANCED_FACE('',(#55),#19,.T.);
#202=ADVANCED_FACE('',(#56),#47,.T.);
#203=ADVANCED_FACE('',(#57),#20,.T.);
#204=ADVANCED_FACE('',(#58),#48,.T.);
#205=ADVANCED_FACE('',(#59),#49,.T.);
#206=ADVANCED_FACE('',(#60),#15,.T.);
#207=ADVANCED_FACE('',(#61),#16,.T.);
#208=ADVANCED_FACE('',(#62),#17,.T.);
#209=ADVANCED_FACE('',(#63),#50,.F.);
#210=ADVANCED_FACE('',(#64),#18,.F.);
#211=CLOSED_SHELL('',(#197,#198,#199,#200,#201,#202,#203,#204,#205,#206,
#207,#208,#209,#210));
#212=DERIVED_UNIT_ELEMENT(#214,1.);
#213=DERIVED_UNIT_ELEMENT(#393,-3.);
#214=(
MASS_UNIT()
NAMED_UNIT(*)
SI_UNIT(.KILO.,.GRAM.)
);
#215=DERIVED_UNIT((#212,#213));
#216=MEASURE_REPRESENTATION_ITEM('density measure',
POSITIVE_RATIO_MEASURE(7850.),#215);
#217=PROPERTY_DEFINITION_REPRESENTATION(#222,#219);
#218=PROPERTY_DEFINITION_REPRESENTATION(#223,#220);
#219=REPRESENTATION('material name',(#221),#390);
#220=REPRESENTATION('density',(#216),#390);
#221=DESCRIPTIVE_REPRESENTATION_ITEM('Steel','Steel');
#222=PROPERTY_DEFINITION('material property','material name',#400);
#223=PROPERTY_DEFINITION('material property','density of part',#400);
#224=AXIS2_PLACEMENT_3D('placement',#329,#255,#256);
#225=AXIS2_PLACEMENT_3D('',#330,#257,#258);
#226=AXIS2_PLACEMENT_3D('',#333,#259,#260);
#227=AXIS2_PLACEMENT_3D('',#335,#261,#262);
#228=AXIS2_PLACEMENT_3D('',#336,#263,#264);
#229=AXIS2_PLACEMENT_3D('',#337,#265,#266);
#230=AXIS2_PLACEMENT_3D('',#340,#267,#268);
#231=AXIS2_PLACEMENT_3D('',#343,#271,#272);
#232=AXIS2_PLACEMENT_3D('',#346,#273,#274);
#233=AXIS2_PLACEMENT_3D('',#348,#275,#276);
#234=AXIS2_PLACEMENT_3D('',#349,#277,#278);
#235=AXIS2_PLACEMENT_3D('',#350,#279,#280);
#236=AXIS2_PLACEMENT_3D('',#353,#281,#282);
#237=AXIS2_PLACEMENT_3D('',#356,#285,#286);
#238=AXIS2_PLACEMENT_3D('',#357,#287,#288);
#239=AXIS2_PLACEMENT_3D('',#358,#289,#290);
#240=AXIS2_PLACEMENT_3D('',#359,#291,#292);
#241=AXIS2_PLACEMENT_3D('',#362,#293,#294);
#242=AXIS2_PLACEMENT_3D('',#365,#297,#298);
#243=AXIS2_PLACEMENT_3D('',#368,#299,#300);
#244=AXIS2_PLACEMENT_3D('',#369,#301,#302);
#245=AXIS2_PLACEMENT_3D('',#370,#303,#304);
#246=AXIS2_PLACEMENT_3D('',#371,#305,#306);
#247=AXIS2_PLACEMENT_3D('',#374,#309,#310);
#248=AXIS2_PLACEMENT_3D('',#375,#311,#312);
#249=AXIS2_PLACEMENT_3D('',#376,#313,#314);
#250=AXIS2_PLACEMENT_3D('',#377,#315,#316);
#251=AXIS2_PLACEMENT_3D('',#381,#319,#320);
#252=AXIS2_PLACEMENT_3D('',#385,#323,#324);
#253=AXIS2_PLACEMENT_3D('',#386,#325,#326);
#254=AXIS2_PLACEMENT_3D('',#387,#327,#328);
#255=DIRECTION('axis',(0.,0.,1.));
#256=DIRECTION('refdir',(1.,0.,0.));
#257=DIRECTION('center_axis',(-0.390898333621335,-0.799398528793674,-0.45624607936351));
#258=DIRECTION('ref_axis',(0.520111463919829,-0.600801125300634,0.607060188891237));
#259=DIRECTION('center_axis',(0.98968955022066,-0.143229166666667,1.13853020554369E-14));
#260=DIRECTION('ref_axis',(-0.143229166666667,-0.98968955022066,0.));
#261=DIRECTION('center_axis',(0.,0.,1.));
#262=DIRECTION('ref_axis',(1.,0.,0.));
#263=DIRECTION('center_axis',(0.,-1.,0.));
#264=DIRECTION('ref_axis',(0.,0.,1.));
#265=DIRECTION('center_axis',(0.,0.,1.));
#266=DIRECTION('ref_axis',(0.654511586350206,-0.756051971317671,0.));
#267=DIRECTION('center_axis',(0.,0.,1.));
#268=DIRECTION('ref_axis',(0.654511586350206,-0.756051971317671,0.));
#269=DIRECTION('',(0.,0.,1.));
#270=DIRECTION('',(0.,0.,-1.));
#271=DIRECTION('center_axis',(0.390898333621337,-0.799398528793675,-0.456246079363505));
#272=DIRECTION('ref_axis',(-0.520111463919833,-0.600801125300634,0.607060188891233));
#273=DIRECTION('center_axis',(0.,-1.,0.));
#274=DIRECTION('ref_axis',(-1.,0.,0.));
#275=DIRECTION('center_axis',(0.,0.,1.));
#276=DIRECTION('ref_axis',(0.143229166666666,-0.98968955022066,0.));
#277=DIRECTION('center_axis',(-0.98968955022066,-0.143229166666667,0.));
#278=DIRECTION('ref_axis',(0.,0.,1.));
#279=DIRECTION('center_axis',(0.,0.,1.));
#280=DIRECTION('ref_axis',(-0.654511586350208,-0.75605197131767,0.));
#281=DIRECTION('center_axis',(0.,0.,1.));
#282=DIRECTION('ref_axis',(-0.654511586350208,-0.75605197131767,0.));
#283=DIRECTION('',(0.,0.,1.));
#284=DIRECTION('',(0.,0.,-1.));
#285=DIRECTION('center_axis',(0.,0.,1.));
#286=DIRECTION('ref_axis',(-1.83697019872103E-16,1.,0.));
#287=DIRECTION('center_axis',(0.,0.,-1.));
#288=DIRECTION('ref_axis',(5.0532154980743E-16,1.,0.));
#289=DIRECTION('center_axis',(0.,0.,1.));
#290=DIRECTION('ref_axis',(5.0532154980743E-16,1.,0.));
#291=DIRECTION('center_axis',(0.,1.,0.));
#292=DIRECTION('ref_axis',(0.707106781186547,0.,0.707106781186548));
#293=DIRECTION('center_axis',(0.,-1.,0.));
#294=DIRECTION('ref_axis',(1.,0.,0.));
#295=DIRECTION('',(0.,-1.,0.));
#296=DIRECTION('',(0.,1.,0.));
#297=DIRECTION('center_axis',(0.,0.,-1.));
#298=DIRECTION('ref_axis',(-1.,0.,0.));
#299=DIRECTION('center_axis',(0.,1.,0.));
#300=DIRECTION('ref_axis',(-1.,0.,0.));
#301=DIRECTION('center_axis',(0.,0.,1.));
#302=DIRECTION('ref_axis',(6.12323399573677E-17,1.,0.));
#303=DIRECTION('center_axis',(0.,0.,-1.));
#304=DIRECTION('ref_axis',(6.12323399573676E-17,1.,0.));
#305=DIRECTION('center_axis',(0.,-1.,0.));
#306=DIRECTION('ref_axis',(-0.707106781186547,0.,0.707106781186548));
#307=DIRECTION('',(0.,1.,0.));
#308=DIRECTION('',(0.,-1.,0.));
#309=DIRECTION('center_axis',(0.,0.,1.));
#310=DIRECTION('ref_axis',(-1.83697019872103E-16,1.,0.));
#311=DIRECTION('center_axis',(0.,0.,1.));
#312=DIRECTION('ref_axis',(1.,0.,0.));
#313=DIRECTION('center_axis',(0.,0.,1.));
#314=DIRECTION('ref_axis',(1.,0.,0.));
#315=DIRECTION('center_axis',(1.,0.,0.));
#316=DIRECTION('ref_axis',(0.,1.,0.));
#317=DIRECTION('',(0.,-1.,0.));
#318=DIRECTION('',(0.,0.,1.));
#319=DIRECTION('center_axis',(-1.,0.,0.));
#320=DIRECTION('ref_axis',(0.,-1.,0.));
#321=DIRECTION('',(0.,0.,1.));
#322=DIRECTION('',(0.,-1.,0.));
#323=DIRECTION('center_axis',(0.,0.,1.));
#324=DIRECTION('ref_axis',(1.,0.,0.));
#325=DIRECTION('center_axis',(0.,0.,1.));
#326=DIRECTION('ref_axis',(1.,0.,0.));
#327=DIRECTION('center_axis',(0.,0.,1.));
#328=DIRECTION('ref_axis',(1.,0.,0.));
#329=CARTESIAN_POINT('',(0.,0.,0.));
#330=CARTESIAN_POINT('Origin',(-1.375,-9.50101968211834,2.6));
#331=CARTESIAN_POINT('',(-1.43229166666667,-9.8968955022066,2.6));
#332=CARTESIAN_POINT('',(-1.375,-9.50101968211833,3.));
#333=CARTESIAN_POINT('Origin',(-1.375,-9.50101968211834,2.6));
#334=CARTESIAN_POINT('',(-0.975,-9.50101968211834,2.6));
#335=CARTESIAN_POINT('Origin',(-1.375,-9.50101968211834,2.6));
#336=CARTESIAN_POINT('Origin',(-1.375,-9.50101968211834,2.6));
#337=CARTESIAN_POINT('Origin',(-1.375,-9.50101968211834,0.));
#338=CARTESIAN_POINT('',(-1.43229166666667,-9.8968955022066,0.));
#339=CARTESIAN_POINT('',(-0.975,-9.50101968211834,0.));
#340=CARTESIAN_POINT('Origin',(-1.375,-9.50101968211834,0.));
#341=CARTESIAN_POINT('',(-0.975,-9.50101968211834,0.));
#342=CARTESIAN_POINT('',(-1.43229166666667,-9.8968955022066,0.));
#343=CARTESIAN_POINT('Origin',(1.375,-9.50101968211834,2.6));
#344=CARTESIAN_POINT('',(0.975,-9.50101968211834,2.6));
#345=CARTESIAN_POINT('',(1.375,-9.50101968211834,3.));
#346=CARTESIAN_POINT('Origin',(1.375,-9.50101968211834,2.6));
#347=CARTESIAN_POINT('',(1.43229166666667,-9.8968955022066,2.6));
#348=CARTESIAN_POINT('Origin',(1.375,-9.50101968211834,2.6));
#349=CARTESIAN_POINT('Origin',(1.375,-9.50101968211834,2.6));
#350=CARTESIAN_POINT('Origin',(1.375,-9.50101968211834,0.));
#351=CARTESIAN_POINT('',(0.975,-9.50101968211834,0.));
#352=CARTESIAN_POINT('',(1.43229166666667,-9.8968955022066,0.));
#353=CARTESIAN_POINT('Origin',(1.375,-9.50101968211834,0.));
#354=CARTESIAN_POINT('',(1.43229166666667,-9.8968955022066,0.));
#355=CARTESIAN_POINT('',(0.975,-9.50101968211834,0.));
#356=CARTESIAN_POINT('Origin',(0.,0.,2.6));
#357=CARTESIAN_POINT('Origin',(0.,0.,3.));
#358=CARTESIAN_POINT('Origin',(0.,0.,2.6));
#359=CARTESIAN_POINT('Origin',(-1.375,-4.96426643666342,2.6));
#360=CARTESIAN_POINT('',(-0.975,0.,2.6));
#361=CARTESIAN_POINT('',(-1.375,0.,3.));
#362=CARTESIAN_POINT('Origin',(-1.375,0.,2.6));
#363=CARTESIAN_POINT('',(-1.375,-4.96426643666342,3.));
#364=CARTESIAN_POINT('',(-0.975,-4.96426643666342,2.6));
#365=CARTESIAN_POINT('Origin',(0.,0.,2.6));
#366=CARTESIAN_POINT('',(0.975,0.,2.6));
#367=CARTESIAN_POINT('',(1.375,0.,3.));
#368=CARTESIAN_POINT('Origin',(1.375,0.,2.6));
#369=CARTESIAN_POINT('Origin',(0.,0.,3.));
#370=CARTESIAN_POINT('Origin',(0.,0.,2.6));
#371=CARTESIAN_POINT('Origin',(1.375,0.0119111877788605,2.6));
#372=CARTESIAN_POINT('',(1.375,0.0119111877788605,3.));
#373=CARTESIAN_POINT('',(0.975,0.0119111877788605,2.6));
#374=CARTESIAN_POINT('Origin',(0.,0.,0.));
#375=CARTESIAN_POINT('Origin',(0.,0.,0.));
#376=CARTESIAN_POINT('Origin',(0.,0.023822375557721,3.));
#377=CARTESIAN_POINT('Origin',(-0.975,-9.95235524888456,0.));
#378=CARTESIAN_POINT('',(-0.975,0.,0.));
#379=CARTESIAN_POINT('',(-0.975,0.,0.));
#380=CARTESIAN_POINT('',(-0.975,0.,0.));
#381=CARTESIAN_POINT('Origin',(0.975,0.,0.));
#382=CARTESIAN_POINT('',(0.975,0.,0.));
#383=CARTESIAN_POINT('',(0.975,0.,0.));
#384=CARTESIAN_POINT('',(0.975,0.,0.));
#385=CARTESIAN_POINT('Origin',(0.,0.,0.));
#386=CARTESIAN_POINT('Origin',(0.,0.,0.));
#387=CARTESIAN_POINT('Origin',(0.,0.023822375557721,0.));
#388=UNCERTAINTY_MEASURE_WITH_UNIT(LENGTH_MEASURE(0.01),#392,
'DISTANCE_ACCURACY_VALUE',
'Maximum model space distance between geometric entities at asserted c
onnectivities');
#389=UNCERTAINTY_MEASURE_WITH_UNIT(LENGTH_MEASURE(0.01),#392,
'DISTANCE_ACCURACY_VALUE',
'Maximum model space distance between geometric entities at asserted c
onnectivities');
#390=(
GEOMETRIC_REPRESENTATION_CONTEXT(3)
GLOBAL_UNCERTAINTY_ASSIGNED_CONTEXT((#388))
GLOBAL_UNIT_ASSIGNED_CONTEXT((#392,#394,#395))
REPRESENTATION_CONTEXT('','3D')
);
#391=(
GEOMETRIC_REPRESENTATION_CONTEXT(3)
GLOBAL_UNCERTAINTY_ASSIGNED_CONTEXT((#389))
GLOBAL_UNIT_ASSIGNED_CONTEXT((#392,#394,#395))
REPRESENTATION_CONTEXT('','3D')
);
#392=(
LENGTH_UNIT()
NAMED_UNIT(*)
SI_UNIT(.MILLI.,.METRE.)
);
#393=(
LENGTH_UNIT()
NAMED_UNIT(*)
SI_UNIT($,.METRE.)
);
#394=(
NAMED_UNIT(*)
PLANE_ANGLE_UNIT()
SI_UNIT($,.RADIAN.)
);
#395=(
NAMED_UNIT(*)
SI_UNIT($,.STERADIAN.)
SOLID_ANGLE_UNIT()
);
#396=SHAPE_DEFINITION_REPRESENTATION(#397,#398);
#397=PRODUCT_DEFINITION_SHAPE('',$,#400);
#398=SHAPE_REPRESENTATION('',(#224),#390);
#399=PRODUCT_DEFINITION_CONTEXT('part definition',#404,'design');
#400=PRODUCT_DEFINITION('Base','Base',#401,#399);
#401=PRODUCT_DEFINITION_FORMATION('',$,#406);
#402=PRODUCT_RELATED_PRODUCT_CATEGORY('Base','Base',(#406));
#403=APPLICATION_PROTOCOL_DEFINITION('international standard',
'automotive_design',2009,#404);
#404=APPLICATION_CONTEXT(
'Core Data for Automotive Mechanical Design Process');
#405=PRODUCT_CONTEXT('part definition',#404,'mechanical');
#406=PRODUCT('Base','Base',$,(#405));
#407=PRESENTATION_STYLE_ASSIGNMENT((#408));
#408=SURFACE_STYLE_USAGE(.BOTH.,#409);
#409=SURFACE_SIDE_STYLE('',(#410));
#410=SURFACE_STYLE_FILL_AREA(#411);
#411=FILL_AREA_STYLE('Steel - Satin',(#412));
#412=FILL_AREA_STYLE_COLOUR('Steel - Satin',#413);
#413=COLOUR_RGB('Steel - Satin',0.627450980392157,0.627450980392157,0.627450980392157);
ENDSEC;
END-ISO-10303-21;
